ssギャグまとまる君

笑えるギャグssを中心としたニッチ系まとめ。

艦これ

大和「吹雪ちゃん、大好きです!」

1: 以下、名無しにかわりましてSS速報VIPがお送りします 2015/03/08(日) 20:51:14.88 ID:E/yJ+ueb0

大和「吹雪ちゃん、おはようございます」

吹雪「おはようございます、大和さん」

大和「昨夜はぐっすり眠られましたか?」

吹雪「はい! あっちの鎮守府にもあんなベッドがあれば良いんですけど」

大和「ふふ、そんなに寝心地が良いんですか?」

吹雪「はい! ふかふかで気持ち良いです!」

大和「それは良かったです」

大和「さぁ、朝食の用意はできておりますので、どうぞこちらへ」ニコ

吹雪「ありがとうございます!」

 

2: 以下、名無しにかわりましてSS速報VIPがお送りします 2015/03/08(日) 21:14:31.01 ID:E/yJ+ueb0

吹雪「大和さん、これすっごく美味しいです!」

大和「ありがとうございます」

吹雪「あぁ・・・私、こんなに贅沢して良いのかな?」

大和「心配はいりませんよ? たくさん召し上がって下さい」ニコ

吹雪「はい!」

睦月「吹雪ちゃん、最近大和さんと仲が良いね」

睦月「ちょっと寂しいかな?」

夕立「睦月ちゃんを悲しませるなんて・・・」

夕立「吹雪ちゃんなんて、ぽいぽいぽい!」クネクネ

睦月「まぁまぁ、落ち着いて・・・」

 

3: 以下、名無しにかわりましてSS速報VIPがお送りします 2015/03/08(日) 21:18:48.76 ID:E/yJ+ueb0

金剛「またブッキーは大和と仲良くしているデスか・・・」

比叡「金剛お姉様、そんなに落ち込まないで下さい」

比叡「私がついているじゃないですか!」

金剛「ブッキー・・・」

比叡「」

榛名「霧島、ゴメンなさい・・・」

榛名「榛名、またトイレに間に合わなくて・・・」ビチョ

霧島「安心して下さい、想定内の出来事ですので」キリッ

 

4: 以下、名無しにかわりましてSS速報VIPがお送りします 2015/03/08(日) 21:19:49.32 ID:TeDBlo0do
榛名になにがあったんだよ

 

5: 以下、名無しにかわりましてSS速報VIPがお送りします 2015/03/08(日) 21:21:40.88 ID:E/yJ+ueb0

大和「さて、午前中は何をしましょうか?」

吹雪「そうですねぇ・・・うーん・・・」

吹雪「とりあえず海辺に行きましょうか?」

大和「良いですね! では早速行きましょう!」

吹雪「はい!」

 

6: 以下、名無しにかわりましてSS速報VIPがお送りします 2015/03/08(日) 21:28:35.71 ID:E/yJ+ueb0

吹雪「」ザクザク

大和「」ザクザク

吹雪「あーさりとれなきゃ」

大和「命取り」

吹雪「あーさりとれなきゃ」

大和「命取り」

吹雪「・・・・・・」

大和「・・・・・・」

島風「おぅっ! んんっ!///」モゾモゾ

吹雪「結構とれましたね」

大和「はい、今日はクラムチャウダーにしようと思っています」

吹雪「良いですね!」

 

7: 以下、名無しにかわりましてSS速報VIPがお送りします 2015/03/08(日) 21:31:11.42 ID:E/yJ+ueb0

吹雪「あ、そうだ」

吹雪「この前は長門秘書艦に迷惑をかけちゃったんで」

吹雪「肩もみでもしに行ってきますね!」

大和「あぁ、それなら私もご一緒させていただいてもよろしいですか?」

吹雪「良いですよ!」

 

8: 以下、名無しにかわりましてSS速報VIPがお送りします 2015/03/08(日) 21:35:14.52 ID:E/yJ+ueb0

吹雪「どうですか?」モミモミ

長門「んっ・・・い、良い感じだ・・・はぁっ!///」

吹雪「この前はすみませんでした・・・」モミモミ

長門「い、良いんだわかってくれれば・・・あぁっ!///」

吹雪「やっぱりすごく凝ってますね」モミモミ

長門「んんっ! ふぅーっ!///」

吹雪「ちょっと強く押しますよ?」グッ

長門「んあぁぁっ!///」チョロロロ・・・

長門「さ、最高だ・・・///」

吹雪「本当ですか! 嬉しいです!」ニコ

大和「・・・・・・」

 

9: 以下、名無しにかわりましてSS速報VIPがお送りします 2015/03/08(日) 21:38:22.60 ID:E/yJ+ueb0

吹雪「長門秘書艦、やっぱり疲れていた感じでしたね」

大和「そうですね」

吹雪「ほとんど1人で艦隊をまとめているんで、やっぱり大変ですよね」

大和「そうですね」

吹雪「私も、少しでもお手伝いできることがあれば喜んでやりますよ!」

大和「吹雪ちゃんは良い子ですね」ニコ

吹雪「そ、そんなことはないですよ」

大和「・・・・・・」

 

10: 以下、名無しにかわりましてSS速報VIPがお送りします 2015/03/08(日) 21:44:13.32 ID:E/yJ+ueb0

吹雪「そういえば、ここでは洗濯物とかはどうすれば良いんですか?」

大和「ラウンドリーがございますが、私に言っていただければ洗濯いたしますよ?」

大和「専用のメイド妖精がいますので、ご安心を」

吹雪「何から何まで便利ですね!」

大和「はい」ニコ

 

11: 以下、名無しにかわりましてSS速報VIPがお送りします 2015/03/08(日) 21:52:40.56 ID:E/yJ+ueb0

大和「さて、そろそろ昼食を作りますか」

吹雪「あの、大和さん」

大和「なんでしょう?」

吹雪「わ、私も一緒に作っても良いですか?」

大和「はい、良いですよ?」

吹雪「やった! 私、頑張っちゃいますね!」

大和「ふふ・・・」

金剛「Oh...羨ましいデース・・・」

金剛「ワタシの方が、ブッキーと一緒に過ごした時間は長いのに・・・」

比叡「はい、榛名。ナプキンは膝の下に置いてね?」

榛名「はーい!」

霧島「お水はここにありますからね?」

榛名「うん!」

 

12: 以下、名無しにかわりましてSS速報VIPがお送りします 2015/03/08(日) 21:55:54.51 ID:E/yJ+ueb0

吹雪「今日の昼食は私と大和さんが作りました!」

吹雪「おかわりもありますから、どんどん食べて下さい!」

赤城「うーん! 素晴らしい味ですね!」パクパク

加賀「はい、あーん」スッ

瑞鶴「あむ」パク

加賀「美味しいかしら?」

瑞鶴「うん!」ニコ

加賀「ふふ・・・」

翔鶴「あ、美味しい・・・」モグモグ

 

13: 以下、名無しにかわりましてSS速報VIPがお送りします 2015/03/08(日) 22:03:21.75 ID:E/yJ+ueb0

吹雪「な、なんか眠くなってきましたね・・・」

大和「ふ、不覚にも・・・」

吹雪「ん? あれは・・・」

睦月「...zzz」

夕立「...zzz」

島風「...zzz」

吹雪「お昼寝、していたんだ・・・」

大和「私達もしますか?」

吹雪「でも、食べた後すぐに寝ると牛になるって言うし・・・」

大和「まぁまぁ、良いじゃないですか」

大和「ほら、私と一緒に寝ましょう?」ギュ

吹雪「え、えーと・・・はい・・・///」

大和「ふふふ・・・」

 

14: 以下、名無しにかわりましてSS速報VIPがお送りします 2015/03/08(日) 22:05:40.52 ID:E/yJ+ueb0

吹雪「...zzz」

大和「...zzz」

金剛「うぅ・・・良いなぁ・・・」

比叡「良い子、良い子・・・」ナデナデ

榛名「...zzz」

霧島「ふふ、可愛い寝顔ですね」

 

15: 以下、名無しにかわりましてSS速報VIPがお送りします 2015/03/08(日) 22:08:56.75 ID:E/yJ+ueb0

吹雪「ふあぁ~あ・・・よく寝た・・・」

大和「うーん・・・」モゾモゾ

吹雪「大和さん、私、この後演習がありますから、また後で」

大和「・・・もう行っちゃうんですか?」

吹雪「大丈夫ですよ、すぐに終わりますから」

吹雪「そんな顔しないで下さい」ニコ

大和「はい・・・」

吹雪「ふふ・・・」ナデナデ

大和「///」

 

16: 以下、名無しにかわりましてSS速報VIPがお送りします 2015/03/08(日) 22:09:34.42 ID:E/yJ+ueb0
ちょっとゴロワーズ吸ってきます

 

17: 以下、名無しにかわりましてSS速報VIPがお送りします 2015/03/08(日) 22:19:09.98 ID:E/yJ+ueb0

金剛「Hey, ブッキー」

吹雪「あ、金剛さん」

金剛「最近、ちょっと大和と仲が良過ぎるんじゃないデスか?」

吹雪「え? そんなことはないと思うんですけど・・・」

金剛「No, そんなことあるデース」

金剛「・・・・・・」

金剛「ブッキーは大和のことが好きなんデスか?」

吹雪「えっ!? そ、それはその・・・///」

金剛「・・・・・・」

 

18: 以下、名無しにかわりましてSS速報VIPがお送りします 2015/03/08(日) 22:24:08.34 ID:E/yJ+ueb0

金剛「(ブッキーは私によく懐いてくれているデース)」

金剛「(ワタシの方が好きに決まっているネ)」

金剛「(それなのに、あの戦艦は・・・)」

金剛「(・・・・・・)」

金剛「(ワタシの方が、前線でより活躍しているネ)」

金剛「(カッコイイ姿を多く見せてイマス)」

金剛「(ブッキーはワタシのものデース)」

金剛「(誰にも渡さない・・・)」

吹雪「あの、金剛さん・・・?」

大和「そこで何をしているのですか?」

 

 

19: 以下、名無しにかわりましてSS速報VIPがお送りします 2015/03/08(日) 22:25:41.24 ID:xr9RTwDh0
この人きっとマジキチSS書けるぞ
いやもうこのスレ自体がキチちゃってるけど

 

20: 以下、名無しにかわりましてSS速報VIPがお送りします 2015/03/08(日) 22:26:43.26 ID:E/yJ+ueb0

吹雪「あ、大和さん」

金剛「・・・・・・」

大和「帰りが遅いので、少し様子を見に来たんです」

吹雪「ちょっと金剛さんと話をしていて・・・」

大和「ふーん」

大和「そうですか」

金剛「・・・・・・」

大和「そうなんですか?」

大和「金剛さん」

吹雪「え? あの・・・」

金剛「・・・その通りネ! ちょっとブッキーと世間話をしていたデース!」

大和「・・・・・・」

 

21: 以下、名無しにかわりましてSS速報VIPがお送りします 2015/03/08(日) 22:28:27.88 ID:E/yJ+ueb0
>>19
よく気づきましたね
仰る通り、普段はマジキチSSしか書いていません
大和プリンスホテルの魅力、存分にお楽しみ下さいませ

 

23: 以下、名無しにかわりましてSS速報VIPがお送りします 2015/03/08(日) 22:34:33.14 ID:E/yJ+ueb0

金剛「あ! ワタシは榛名の様子を見てくるデース!」タッ

吹雪「あ・・・」

大和「・・・・・・」

大和「ねぇ、吹雪ちゃん」

吹雪「は、はい?」

大和「どうして私以外の娘と話していたんですか?」

吹雪「え? あの・・・」

大和「私だけでは満足できないんですか?」

大和「こんなに頑張っているのに」

大和「ねぇ? どうしてなんですか?」

吹雪「お、落ち着いて下さい大和さん・・・」オロオロ

大和「ねぇ」

大和「吹雪ちゃん」

大和「質問に答えて下さい」

大和「 ど う し て 私 以 外 の 娘 と 話 す ん で す か ? 」

大和「 ね ぇ ? 」

吹雪「」

 

24: 以下、名無しにかわりましてSS速報VIPがお送りします 2015/03/08(日) 22:37:58.07 ID:E/yJ+ueb0

吹雪「ひっ!?」ガクガク

大和「!」ハッ

大和「す、すいません、怖がらせるつもりは・・・」

吹雪「い、いえ、良いんですよ・・・」

大和「・・・・・・」

吹雪「・・・・・・」

大和「・・・あの」

吹雪「はい!?」ビク

大和「まだ時間がありますし、ちょっと向こうへ行きませんか?」

大和「少し話したいことがあるんです」

吹雪「は、はい・・・」

 

26: 以下、名無しにかわりましてSS速報VIPがお送りします 2015/03/08(日) 22:41:40.01 ID:E/yJ+ueb0

吹雪「・・・・・・」

大和「・・・・・・」

大和「この時間帯のここは、とても静かですよね」

吹雪「そ、そうですね・・・」

大和「普段は皆さんが海水浴をしておられますので、賑やかなんですが」

大和「今は私と吹雪ちゃんの2人だけ」

大和「そう、2人っきり・・・」

吹雪「・・・・・・」

大和「・・・・・・」

 

27: 以下、名無しにかわりましてSS速報VIPがお送りします 2015/03/08(日) 22:47:49.39 ID:E/yJ+ueb0

大和「私はこの綺麗な景色が大好きです」

大和「そして、吹雪ちゃんと一緒に過ごせる時間はもっと好き」

吹雪「ふぇっ!?///」

大和「この場所、覚えていますか?」

大和「私が吹雪ちゃんに誘われて、初めて海の上に立った場所・・・」

大和「一生の、思い出の場所・・・」

大和「私、すごく嬉しかったんです」

大和「吹雪ちゃんは今まで箱入り同然だった私に、艦娘としての楽しさを教えてくれました」

大和「私がついている、大丈夫だって」

大和「あのときの吹雪ちゃんは、とても頼もしかったです」

大和「あぁ、なんて素敵な娘なんだろう・・・って」

吹雪「・・・・・・」

 

28: 以下、名無しにかわりましてSS速報VIPがお送りします 2015/03/08(日) 22:52:00.76 ID:E/yJ+ueb0

大和「それから私は、ずっと吹雪ちゃんのことだけを考えてきました」

大和「ずっと一緒にいたいな、と・・・」

吹雪「大和さん・・・」

大和「吹雪ちゃん、よく聞いて下さい」

大和「もう、私は貴女無しには生きていけない・・・」

大和「好きなんです、吹雪ちゃんのことが・・・」

大和「ずっと、ずっと私と一緒にいて下さい」

大和「お願い・・・」

吹雪「大和・・・さん・・・」

大和「吹雪ちゃん・・・!」グイ

吹雪「あ・・・」

大和「ん・・・」チュ

吹雪「ん・・・」

金剛「・・・・・・」

榛名「?」

 

29: 以下、名無しにかわりましてSS速報VIPがお送りします 2015/03/08(日) 22:55:04.10 ID:E/yJ+ueb0

金剛「(あの女・・・絶対に・・・)」

金剛「( 許 さ な い )」

榛名「ねぇねぇー」クイクイ

金剛「はいはい、そろそろ夕食デスから」

金剛「戻りマショウ!」

榛名「うん!」ニコ

金剛「(・・・・・・)」

 

30: 以下、名無しにかわりましてSS速報VIPがお送りします 2015/03/08(日) 22:58:13.97 ID:E/yJ+ueb0

赤城「このラタトゥーイユ、素晴らしい味ですね」パクパク

加賀「瑞鶴、ケチャップがついているわ」フキフキ

瑞鶴「んぅ・・・」

加賀「ちゃんと野菜も食べるのよ?」

瑞鶴「うん!」ニコ

加賀「ふふ、良い子ね・・・」ナデナデ

翔鶴「このアイントプフ、癖になりそう・・・」ズズ

 

32: 以下、名無しにかわりましてSS速報VIPがお送りします 2015/03/08(日) 23:03:09.24 ID:E/yJ+ueb0

比叡「はい、あーん」スッ

榛名「あむ」パク

比叡「美味しい?」

榛名「おいしい!」

霧島「それは良かったですね」

榛名「うん! きりしまもいっぱいたべてね!」

霧島「はい!」

夕立「このビーフストロガノフ、もっと欲しいっぽい」

睦月「おかわりはあるよ?」

夕立「もっともっともっともっと・・・」

 

33: 以下、名無しにかわりましてSS速報VIPがお送りします 2015/03/08(日) 23:07:10.09 ID:E/yJ+ueb0

大和「はい、あーん」

吹雪「あーん・・・」

大和「どうですか? 今日はいつもより気合を入れて作ってみました!」

吹雪「すごく美味しいです、大和さん!」

大和「それは嬉しいですね・・・ふふ」

吹雪「えへへ・・・」

金剛「・・・・・・」

金剛「(このままではブッキーが・・・どうすれば)」

金剛「(同じ戦艦でも、あの女にも弱点があるはずデース)」

金剛「(うーん・・・)」

金剛「(あ)」

金剛「(これデース・・・)」ニヤニヤ

榛名「こんごうねーさま、あーん」スッ

金剛「あむっ」パク

金剛「まーべらすネ!」ナデナデ

榛名「えへへ!」

 

34: 以下、名無しにかわりましてSS速報VIPがお送りします 2015/03/08(日) 23:10:29.95 ID:E/yJ+ueb0

金剛「ぐれいとぅ! どれを食べても美味しいデース!」

金剛「やっぱり大和ホテルは格別ネ!」

吹雪「え・・・」

大和「・・・・・・」

大和「・・・はい、大和ホテル自慢のフルコースです」ニコニコ

大和「おかわりはいっぱいありますから」ニコニコ

大和「いっぱい食べて下さい」ニコニコ

大和「ね?」

 

 

35: 以下、名無しにかわりましてSS速報VIPがお送りします 2015/03/08(日) 23:14:15.27 ID:E/yJ+ueb0

― 大浴場 ―

吹雪「はぁー・・・良い湯だねー・・・」

夕立「吹雪ちゃん、ちょっとオヤジっぽいー」

夕立「ついでにちょっと地味っぽいー」

夕立「あとちょっとキモいっぽいー」

吹雪「言い過ぎだよ!?」

睦月「あはは・・・」

吹雪「(あぁ・・・それにしても)」

吹雪「(大和さんの唇、ほんのり甘くて柔らかかったなー・・・)」

吹雪「(///)」クチュクチュ

夕立「」ジー

睦月「・・・・・・」

 

36: 以下、名無しにかわりましてSS速報VIPがお送りします 2015/03/08(日) 23:20:35.27 ID:E/yJ+ueb0

吹雪「(それから私と大和さんは、みんなに隠れて密かに付き合うことになりました)」

吹雪「(駆逐艦と戦艦・・・ましてや艦娘同士、女の子同士・・・)」

吹雪「(でも、毎日が楽しいです)」

吹雪「(あ、赤城先輩は憧れの人ですからね!)」

吹雪「(ちょっと夕立ちゃんにボコられたり、ふぶキチってあだ名つけられましたけど!)」

吹雪「(・・・・・・)」

吹雪「(ただ最近、金剛さんの様子がおかしいんです)」

吹雪「(やたら大和さんに対して、ホテル、ホテルと連呼しているんです)」

吹雪「(私が注意しても全然やめてくれなくて・・・)」

吹雪「(どうしてしまったんでしょう・・・)」

吹雪「(大和さん・・・)」

夕立「ふぶキチ表に出ろ」

吹雪「」

 

38: 以下、名無しにかわりましてSS速報VIPがお送りします 2015/03/08(日) 23:25:37.69 ID:E/yJ+ueb0

金剛「うん! 今日の朝食も最高ネ!」

金剛「特にこのコンソメスープ!」

金剛「一流ホテルの味ネ!」

大和「・・・・・・」

金剛「Oh! いつの間にラムネが補充されたデスか!?」

金剛「やっぱり大和ホテルはすごいデース!」

大和「・・・・・・」

金剛「ふっかふかのベッドネ!」

金剛「高級ホテル並みネ!」

大和「・・・・・・」

金剛「景色も最高!」

金剛「湯加減も最高!」

金剛「テレビも大きいデース!」

金剛「さすが大和ホテルネー!」

大和「・・・・・・」

 

39: 以下、名無しにかわりましてSS速報VIPがお送りします 2015/03/08(日) 23:29:10.58 ID:E/yJ+ueb0

おじいちゃん『Hi! ジェニー! おじいちゃんだよ!』

おじいちゃん『わかるかい?』

おじいちゃん『もうすぐ会えるんだね、お祖父ちゃんもクリスマスが来るのが楽しみだよ』

おじいちゃん『さぞかし、大きくなったろうな』

おじいちゃん『お前が来る頃にはきっと、大きなオーロラが見えるよ』

おじいちゃん『誕生日のクリスマスには、大好きなチェリーパイを』

おじいちゃん『それはそれは大きなチェリーパイを、オーロラの下で用意して』

おじいちゃん『お祖父ちゃん、待ってるからね?』

おじいちゃん『はぁは、ははwww良い子だ良い子だぁwwww』

金剛「テレビゲームもし放題ネ!」

金剛「大和ホテルならではのゲームの品揃え!」

金剛「最高デース!」

大和「・・・・・・」

吹雪「・・・・・・」

島風「ん・・・///」チョロロロ・・・

響「・・・・・・」

 

40: 以下、名無しにかわりましてSS速報VIPがお送りします 2015/03/08(日) 23:30:38.16 ID:E/yJ+ueb0

― ホール ―

金剛「・・・・・・」

大和「・・・・・・」

吹雪「・・・・・・」

比叡「・・・・・・」

榛名「~♪」

霧島「・・・・・・」

 

43: 以下、名無しにかわりましてSS速報VIPがお送りします 2015/03/08(日) 23:32:34.63 ID:E/yJ+ueb0

※Capo : Fret 7

E||-----------------0--------3--5--|-----------2-----------------------|-----0--------0-----------------------|-----------------0--|
B||--------0--------------0--------|--------0--------4--------------0--|--------3--------3--------3--------0--|-----------0--------|
G||-----------0--------0-----0--2--|-----2--------2--------2-----2-----|-----------2-----------2--------2-----|--------0-----0-----|
D||-----2--------2-----------------|--1-----------------1--------------|--0-----------------0-----------------|-----2--------------|
A||--------------------------------|--------------------------2--------|-----------------------------0--------|--4-----------------|
E||--0-----------------------------|-----------------------------------|--------------------------------------|--------------------|

金剛「~♪」

E||-----------------0----------------|--------------3--------3--------------|--------------------0-----------------|-----------------2--|
B||-----------1-----------1----------|-----0-----------0--------0--------0--|--------------1-----------1--------0--|--------0-----------|
G||--------0-----0----------------0--|--------0-----------------------0-----|--------0--------0-----0--------0-----|-----------2--------|
D||-----2--------------------0h2-----|--0--------0--------------------------|-----2-----2--------------------------|-----1--------1-----|
A||--3-----------------3-------------|--------------------2-----------------|--0-----------------------------------|--2-----------------|
E||----------------------------------|-----------------------------3--------|-----------------------------0--------|--------------------|

吹雪「・・・・・・」

大和「・・・・・・」

 

 

44: 以下、名無しにかわりましてSS速報VIPがお送りします 2015/03/08(日) 23:34:17.04 ID:E/yJ+ueb0

金剛「Welcome to the Hotel Yamato♪ (ようこそ、ホテル・大和へ♪)」

E||-----3--3-----3-----3-----3--3s5--3--3--|-----2--------------------------------------2--2--|
B||-----3--3-----3-----3-----3----------3--|--------------------------------------------------|
G||----------------------------------------|-----------0--2--0-----2--0--0-----0--2--0--------|
D||-----0-----------0-----------0----------|--0-----0-----------4-----------4-----------------|
A||-----------2----------------------------|--------------------------------------------------|
E||--3--------------------3----------------|--------------------------------------------------|

金剛「Such a lovely place♪ (とっても素敵な所♪)」

E||--2--0--0-----2--2--2--0--0-----------|
B||--------------------------------5--5--|
G||--------------------------------------|
D||--------------------------------------|
A||--------------------------------------|
E||--2--------2--------2--------2--------|

金剛「Such a lovely face♪ (とっても素敵な外観♪)」

E||-----0--0-----0--0--------0--0-----------------|
B||--5--3--3-----3--3--------3--3-----------------|
G||-----------------------------------------------|
D||-----------------------------------2--4--5-----|
A||--2--------4--------4--5--------5--------------|
E||--------------------------------------------3--|

 

45: 以下、名無しにかわりましてSS速報VIPがお送りします 2015/03/08(日) 23:35:37.40 ID:E/yJ+ueb0

金剛「Plenty of room at the Hotel Yamato♪ (ホテル・大和にはたくさん部屋がありますから♪)」

Harm.
E||--3--3-----3-----3-----3--3s5--3--3--|-----2-----0--2--0-----5-----5s7------2--2--|
B||--3--3-----3-----3-----3----------3--|--------------------------7------◆7--------|
G||-------------------------------------|--------------------------------------------|
D||--0-----------0-----------0----------|--0-----0-----------0--0-----0--------------|
A||--------2----------------------------|--------------------------------------------|
E||--------------------3----------------|--------------------------------------------|

金剛「Any time of year♪ (一年中いつでも♪)」

E||--2--0--0-----2--2--2--0--0-----3--3--|
B||--------------------------------------|
G||--------------------------------------|
D||--------------------------------------|
A||--------------------------------------|
E||--0--------0--------0--------0--------|

金剛「You can find it here♪ (お部屋を見つけられますよ♪)」

E||-----2--2-----2--2--------2--2--------2-----|
B||--------2-----2-----2-----2-----------2-----|
G||--------------------------------------------|
D||-----------------------------------4-----4--|
A||--------------------------------------------|
E||--2--------2-----------2--------2-----------|

吹雪「・・・・・・」

大和「・・・・・・」

大和「・・・・・・・・・」

大和「ふーん・・・・・・」

 

 

48: 以下、名無しにかわりましてSS速報VIPがお送りします 2015/03/08(日) 23:49:35.26 ID:E/yJ+ueb0

大和「金剛さん、素晴らしい演奏でした」

金剛「どーもデース!」

大和「金剛さんには、是非ともお礼がしたいです」

大和「当大和プリンスホテルの最高級スイートルームにご招待いたしましょう」

金剛「やったデース!」

大和「ふふ・・・存分に」

大和「お楽しみ下さい」

 

 

49: 以下、名無しにかわりましてSS速報VIPがお送りします 2015/03/08(日) 23:52:51.94 ID:E/yJ+ueb0

― 数日後 ―

金剛「ひえい、おしっこ・・・」

比叡「あ、一緒に行きましょうか」

比叡「こっちですよ?」

金剛「うん」トテトテ

吹雪「金剛さん、最近どうしたんだろう・・・」

睦月「なんか幼くなったような・・・」

夕立「ぽいぽいぽい!」クネクネ

大和「大丈夫ですよ、心配はいりません」

吹雪「そうですか?」

大和「はい」ニコ

 

51: 以下、名無しにかわりましてSS速報VIPがお送りします 2015/03/09(月) 00:03:12.02 ID:5fLZQ+2U0

― それから・・・ ―

島風「吹雪ちゃん、おっそーい!」

吹雪「は、速過ぎるよぉー・・・」

大和「・・・・・・」

吹雪「このボルシチ美味しいね!」

響「はらしょー」

大和「・・・・・・」

長門「あぁ、今日もすまないな」

吹雪「いえいえ、良いんですよ!」

大和「・・・・・・」

夕立「改二になったっぽい!」

吹雪「おめでとう、夕立ちゃん!」

大和「・・・・・・」

赤城「あぁ、幸せ・・・」パクパク

吹雪「赤城先輩~///」

大和「・・・・・・」

吹雪「憲兵さん、お疲れ様です!」

憲兵「どうも」

大和「・・・・・・」

 

53: 以下、名無しにかわりましてSS速報VIPがお送りします 2015/03/09(月) 00:09:56.98 ID:5fLZQ+2U0

― 海辺 ―

大和「最近、随分とこの基地が賑やかになりましたね」

吹雪「確かにそうですね」

大和「吹雪ちゃんの人柄の良さのおかげだと思いますよ?」

吹雪「えぇっ!? そんなことないですよ!」

大和「ふふ、毎日が楽しいです・・・本当に」

吹雪「わ、私も・・・」

大和「・・・・・・」

吹雪「・・・・・・」

大和「」ギュ

吹雪「あ・・・///」

大和「ふふ・・・」ニコ

吹雪「・・・・・・」

吹雪「えへへ・・・」ニコ

榛名「ふぁ・・・///」プルプル

比叡「あ」

金剛「ふえーん!!」ポロポロ

霧島「おーよしよし、大丈夫ですよ?」ナデナデ

――― 終 ―――

 

 

 

元スレ

大和「吹雪ちゃん、大好きです!」

http://ex14.vip2ch.com/news4ssnip/kako/1425/14258/1425815474.html

-艦これ